  0
SECTION
  2
HEADER
  9
$ACADVER
  1
AC1009
  9
$INSBASE
 10
-5.250116169514029
 20
-4.499359586038224
 30
0.0
  9
$EXTMIN
 10
1.075013629300784
 20
0.2751107492229607
 30
0.0
  9
$EXTMAX
 10
82.18116240553436
 20
79.1315330987353
 30
0.0
  9
$LIMMIN
 10
0.0
 20
0.0
  9
$LIMMAX
 10
210.0
 20
297.0
  9
$ORTHOMODE
 70
     0
  9
$REGENMODE
 70
     1
  9
$FILLMODE
 70
     1
  9
$QTEXTMODE
 70
     0
  9
$MIRRTEXT
 70
     0
  9
$DRAGMODE
 70
     2
  9
$LTSCALE
 40
1.0
  9
$OSMODE
 70
     0
  9
$ATTMODE
 70
     2
  9
$TEXTSIZE
 40
3.5
  9
$TRACEWID
 40
0.1
  9
$TEXTSTYLE
  7
STANDARD
  9
$CLAYER
  8
0
  9
$CELTYPE
  6
BYLAYER
  9
$CECOLOR
 62
   256
  9
$DIMSCALE
 40
1.0
  9
$DIMASZ
 40
2.5
  9
$DIMEXO
 40
1.0
  9
$DIMDLI
 40
8.0
  9
$DIMRND
 40
0.0
  9
$DIMDLE
 40
0.0
  9
$DIMEXE
 40
2.0
  9
$DIMTP
 40
0.1
  9
$DIMTM
 40
0.1
  9
$DIMTXT
 40
3.5
  9
$DIMCEN
 40
2.0
  9
$DIMTSZ
 40
0.0
  9
$DIMTOL
 70
     0
  9
$DIMLIM
 70
     0
  9
$DIMTIH
 70
     0
  9
$DIMTOH
 70
     0
  9
$DIMSE1
 70
     0
  9
$DIMSE2
 70
     0
  9
$DIMTAD
 70
     1
  9
$DIMZIN
 70
     8
  9
$DIMBLK
  1

  9
$DIMASO
 70
     1
  9
$DIMSHO
 70
     1
  9
$DIMPOST
  1

  9
$DIMAPOST
  1

  9
$DIMALT
 70
     0
  9
$DIMALTD
 70
     2
  9
$DIMALTF
 40
25.39999999999999
  9
$DIMLFAC
 40
1.0
  9
$DIMTOFL
 70
     1
  9
$DIMTVP
 40
0.0
  9
$DIMTIX
 70
     0
  9
$DIMSOXD
 70
     0
  9
$DIMSAH
 70
     0
  9
$DIMBLK1
  1

  9
$DIMBLK2
  1

  9
$DIMSTYLE
  2
GEN-ISO
  9
$DIMCLRD
 70
   256
  9
$DIMCLRE
 70
   256
  9
$DIMCLRT
 70
     2
  9
$DIMTFAC
 40
0.71
  9
$DIMGAP
 40
1.5
  9
$LUNITS
 70
     2
  9
$LUPREC
 70
     3
  9
$SKETCHINC
 40
0.1
  9
$FILLETRAD
 40
2.5
  9
$AUNITS
 70
     0
  9
$AUPREC
 70
     1
  9
$MENU
  1

  9
$ELEVATION
 40
0.0
  9
$PELEVATION
 40
0.0
  9
$THICKNESS
 40
0.0
  9
$LIMCHECK
 70
     0
  9
$BLIPMODE
 70
     0
  9
$CHAMFERA
 40
2.5
  9
$CHAMFERB
 40
2.5
  9
$SKPOLY
 70
     1
  9
$TDCREATE
 40
2450064.549515509
  9
$TDUPDATE
 40
2450247.381358912
  9
$TDINDWG
 40
0.0513503472
  9
$TDUSRTIMER
 40
0.0513503472
  9
$USRTIMER
 70
     1
  9
$ANGBASE
 50
0.0
  9
$ANGDIR
 70
     0
  9
$PDMODE
 70
     3
  9
$PDSIZE
 40
0.0
  9
$PLINEWID
 40
0.0
  9
$COORDS
 70
     2
  9
$SPLFRAME
 70
     0
  9
$SPLINETYPE
 70
     6
  9
$SPLINESEGS
 70
     8
  9
$ATTDIA
 70
     1
  9
$ATTREQ
 70
     1
  9
$HANDLING
 70
     1
  9
$HANDSEED
  5
AC
  9
$SURFTAB1
 70
     6
  9
$SURFTAB2
 70
     6
  9
$SURFTYPE
 70
     6
  9
$SURFU
 70
     6
  9
$SURFV
 70
     6
  9
$UCSNAME
  2
AIT$ITEM
  9
$UCSORG
 10
0.0
 20
0.0
 30
0.0
  9
$UCSXDIR
 10
1.0
 20
0.0
 30
0.0
  9
$UCSYDIR
 10
0.0
 20
1.0
 30
0.0
  9
$PUCSNAME
  2

  9
$PUCSORG
 10
0.0
 20
0.0
 30
0.0
  9
$PUCSXDIR
 10
1.0
 20
0.0
 30
0.0
  9
$PUCSYDIR
 10
0.0
 20
1.0
 30
0.0
  9
$USERI1
 70
     0
  9
$USERI2
 70
     3
  9
$USERI3
 70
    15
  9
$USERI4
 70
     0
  9
$USERI5
 70
     0
  9
$USERR1
 40
1.0
  9
$USERR2
 40
1.0
  9
$USERR3
 40
0.0
  9
$USERR4
 40
1.0
  9
$USERR5
 40
0.0
  9
$WORLDVIEW
 70
     1
  9
$SHADEDGE
 70
     3
  9
$SHADEDIF
 70
    70
  9
$TILEMODE
 70
     1
  9
$MAXACTVP
 70
     4
  9
$PINSBASE
 10
0.0
 20
0.0
 30
0.0
  9
$PLIMCHECK
 70
     0
  9
$PEXTMIN
 10
1.000000000000000E+20
 20
1.000000000000000E+20
 30
1.000000000000000E+20
  9
$PEXTMAX
 10
-1.000000000000000E+20
 20
-1.000000000000000E+20
 30
-1.000000000000000E+20
  9
$PLIMMIN
 10
0.0
 20
0.0
  9
$PLIMMAX
 10
420.0
 20
297.0
  9
$UNITMODE
 70
     0
  9
$VISRETAIN
 70
     0
  9
$PLINEGEN
 70
     0
  9
$PSLTSCALE
 70
     0
  9
$TREEDEPTH
 70
  3020
  9
$DWGCODEPAGE
  3
dos850
  0
ENDSEC
  0
SECTION
  2
TABLES
  0
TABLE
  2
VPORT
 70
     2
  0
VPORT
  2
*ACTIVE
 70
     0
 10
0.0
 20
0.0
 11
1.0
 21
1.0
 12
51.37262356034108
 22
39.70332192397913
 13
0.0
 23
0.0
 14
7.0
 24
7.0
 15
10.0
 25
10.0
 16
0.0
 26
0.0
 36
1.0
 17
0.0
 27
0.0
 37
0.0
 40
78.85642234951234
 41
1.275675675675675
 42
50.0
 43
0.0
 44
0.0
 50
0.0
 51
0.0
 71
     0
 72
   100
 73
     1
 74
     0
 75
     0
 76
     0
 77
     0
 78
     0
  0
ENDTAB
  0
TABLE
  2
LTYPE
 70
     3
  0
LTYPE
  2
CONTINUOUS
 70
    64
  3
Solid line
 72
    65
 73
     0
 40
0.0
  0
LTYPE
  2
GEN7A
 70
    64
  3
__ . __ . __
 72
    65
 73
     4
 40
7.5
 49
5.0
 49
-1.25
 49
0.0
 49
-1.25
  0
LTYPE
  2
GEN
 70
    64
  3
----------------------
 72
    65
 73
     2
 40
10000000000.0
 49
0.0
 49
10000000000.0
  0
ENDTAB
  0
TABLE
  2
LAYER
 70
     5
  0
LAYER
  2
0
 70
     0
 62
     7
  6
GEN
  0
LAYER
  2
ITEM_HILFE
 70
    64
 62
     3
  6
CONTINUOUS
  0
LAYER
  2
ITEM_STPG
 70
    64
 62
     4
  6
GEN7A
  0
LAYER
  2
ITEM_25
 70
    64
 62
     3
  6
CONTINUOUS
  0
LAYER
  2
ITEM_50
 70
    64
 62
     7
  6
CONTINUOUS
  0
ENDTAB
  0
TABLE
  2
STYLE
 70
     1
  0
STYLE
  2
STANDARD
 70
     0
 40
0.0
 41
1.0
 50
0.0
 71
     0
 42
3.5
  3
GENISO
  4

  0
ENDTAB
  0
TABLE
  2
VIEW
 70
     0
  0
ENDTAB
  0
TABLE
  2
UCS
 70
     1
  0
UCS
  2
AIT$ITEM
 70
     0
 10
0.0
 20
0.0
 30
0.0
 11
1.0
 21
0.0
 31
0.0
 12
0.0
 22
1.0
 32
0.0
  0
ENDTAB
  0
TABLE
  2
APPID
 70
     9
  0
APPID
  2
ACAD
 70
    64
  0
ENDTAB
  0
TABLE
  2
DIMSTYLE
 70
     1
  0
DIMSTYLE
  2
GEN-ISO
 70
     0
  3

  4

  5

  6

  7

 40
1.0
 41
2.5
 42
1.0
 43
8.0
 44
2.0
 45
0.0
 46
0.0
 47
0.1
 48
0.1
140
3.5
141
2.0
142
0.0
143
25.39999999999999
144
1.0
145
0.0
146
0.71
147
1.5
 71
     0
 72
     0
 73
     0
 74
     0
 75
     0
 76
     0
 77
     1
 78
     8
170
     0
171
     2
172
     1
173
     0
174
     0
175
     0
176
   256
177
   256
178
     2
  0
ENDTAB
  0
ENDSEC
  0
SECTION
  2
BLOCKS
  0
ENDSEC
  0
SECTION
  2
ENTITIES
  0
LINE
  8
ITEM_STPG
  5
1F
 10
62.30296694931948
 20
62.70540959242336
 30
0.0
 11
12.89847352143209
 21
62.70540959242336
 31
0.0
  0
LINE
  8
ITEM_STPG
  5
22
 10
47.50113713561295
 20
67.0782368004354
 30
0.0
 11
47.50113713561295
 21
58.38099146632475
 31
0.0
  0
LINE
  8
ITEM_50
  5
23
 10
61.00113713561295
 20
58.60540959242663
 30
0.0
 11
61.00113713561272
 21
51.20540959242336
 31
0.0
  0
LINE
  8
ITEM_50
  5
25
 10
61.00113713561272
 20
74.20540959242347
 30
0.0
 11
61.00113713561295
 21
66.80540959242645
 31
0.0
  0
CIRCLE
  8
ITEM_50
  5
26
 10
47.5011371356125
 20
62.70540959242404
 30
0.0
 40
3.5
  0
ARC
  8
ITEM_50
  5
27
 10
61.00113713561295
 20
66.30540959242645
 30
0.0
 40
0.5
 50
90.00000000000673
 51
180.0000000000038
  0
LINE
  8
ITEM_50
  5
28
 10
60.50113713561295
 20
66.30540959242645
 30
0.0
 11
60.50113713561295
 21
65.80540959242645
 31
0.0
  0
LINE
  8
ITEM_50
  5
29
 10
60.50113713561295
 20
59.60540959242663
 30
0.0
 11
60.50113713561295
 21
59.10540959242663
 31
0.0
  0
ARC
  8
ITEM_50
  5
2A
 10
61.00113713561295
 20
59.10540959242663
 30
0.0
 40
0.5
 50
180.0000000000046
 51
270.0000000000102
  0
LINE
  8
ITEM_50
  5
2B
 10
34.5011371356125
 20
59.60540959242368
 30
0.0
 11
34.50113713561295
 21
59.10540959242391
 31
0.0
  0
LINE
  8
ITEM_50
  5
2C
 10
34.50113713561227
 20
66.3054095924235
 30
0.0
 11
34.50113713561204
 21
65.8054095924235
 31
0.0
  0
ARC
  8
ITEM_50
  5
2D
 10
34.00113713561227
 20
66.3054095924235
 30
0.0
 40
0.5
 50
0.0000000000040335
 51
90.00000000000115
  0
ARC
  8
ITEM_50
  5
2E
 10
34.00113713561295
 20
59.10540959242391
 30
0.0
 40
0.5
 50
269.9999999999976
 51
0.0000000000032193
  0
ARC
  8
ITEM_50
  5
2F
 10
28.5011371356125
 20
59.10540959242391
 30
0.0
 40
0.5
 50
180.0000000000018
 51
270.0000000000011
  0
ARC
  8
ITEM_50
  5
30
 10
28.5011371356125
 20
66.30540959242327
 30
0.0
 40
0.5
 50
90.00000000000115
 51
180.0000000000011
  0
LINE
  8
ITEM_50
  5
31
 10
28.0011371356125
 20
66.30540959242327
 30
0.0
 11
28.0011371356125
 21
59.10540959242391
 31
0.0
  0
LINE
  8
ITEM_50
  5
32
 10
34.00113713561295
 20
58.60540959242391
 30
0.0
 11
28.50113713561272
 21
58.60540959242413
 31
0.0
  0
LINE
  8
ITEM_50
  5
33
 10
34.00113713561227
 20
66.8054095924235
 30
0.0
 11
28.5011371356125
 21
66.80540959242327
 31
0.0
  0
LINE
  8
ITEM_50
  5
34
 10
61.00113713561249
 20
65.80540959242418
 30
0.0
 11
61.00113713561249
 21
59.60540959242436
 31
0.0
  0
LINE
  8
ITEM_25
  5
35
 10
53.50113713561249
 20
59.60540959242368
 30
0.0
 11
53.50113713561249
 21
65.80540959242441
 31
0.0
  0
LINE
  8
ITEM_50
  5
37
 10
53.50113713561249
 20
59.60540959242368
 30
0.0
 11
61.00113713561249
 21
59.60540959242436
 31
0.0
  0
LINE
  8
ITEM_50
  5
38
 10
53.50113713561249
 20
65.80540959242441
 30
0.0
 11
61.00113713561249
 21
65.80540959242418
 31
0.0
  0
LINE
  8
ITEM_50
  5
39
 10
41.5011371356125
 20
65.80540959242418
 30
0.0
 11
34.0011371356125
 21
65.8054095924235
 31
0.0
  0
LINE
  8
ITEM_50
  5
3A
 10
41.5011371356125
 20
59.60540959242345
 30
0.0
 11
34.0011371356125
 21
59.60540959242368
 31
0.0
  0
LINE
  8
ITEM_25
  5
3B
 10
41.5011371356125
 20
59.60540959242345
 30
0.0
 11
41.5011371356125
 21
65.80540959242418
 31
0.0
  0
LINE
  8
ITEM_50
  5
3C
 10
34.0011371356125
 20
65.8054095924235
 30
0.0
 11
34.0011371356125
 21
59.60540959242368
 31
0.0
  0
LINE
  8
ITEM_50
  5
3D
 10
14.40113713561282
 20
46.20540959242336
 30
0.0
 11
20.60113713561263
 21
46.20540959242336
 31
0.0
  0
LINE
  8
ITEM_25
  5
3E
 10
20.60113713561309
 20
38.70540959242336
 30
0.0
 11
14.40113713561236
 21
38.70540959242336
 31
0.0
  0
LINE
  8
ITEM_50
  5
3F
 10
20.60113713561309
 20
38.70540959242336
 30
0.0
 11
20.60113713561263
 21
46.20540959242336
 31
0.0
  0
LINE
  8
ITEM_50
  5
40
 10
14.40113713561236
 20
38.70540959242336
 30
0.0
 11
14.40113713561282
 21
46.20540959242336
 31
0.0
  0
LINE
  8
ITEM_50
  5
41
 10
14.40113713561236
 20
26.70540959242336
 30
0.0
 11
14.40113713561282
 21
19.20540959242336
 31
0.0
  0
LINE
  8
ITEM_50
  5
42
 10
20.60113713561309
 20
26.70540959242336
 30
0.0
 11
20.60113713561263
 21
19.20540959242336
 31
0.0
  0
LINE
  8
ITEM_25
  5
43
 10
20.60113713561309
 20
26.70540959242336
 30
0.0
 11
14.40113713561236
 21
26.70540959242336
 31
0.0
  0
LINE
  8
ITEM_50
  5
44
 10
14.40113713561282
 20
19.20540959242336
 30
0.0
 11
20.60113713561263
 21
19.20540959242336
 31
0.0
  0
LINE
  8
ITEM_50
  5
45
 10
13.40113713561054
 20
19.20540959242336
 30
0.0
 11
6.001137135612502
 21
19.20540959242336
 31
0.0
  0
LINE
  8
ITEM_50
  5
46
 10
29.00113713561272
 20
19.20540959242336
 30
0.0
 11
21.60113713561036
 21
19.20540959242336
 31
0.0
  0
LINE
  8
ITEM_50
  5
47
 10
13.40113713561282
 20
46.20540959242359
 30
0.0
 11
13.40113713561304
 21
51.70540959242336
 31
0.0
  0
LINE
  8
ITEM_50
  5
48
 10
21.60113713561241
 20
46.20540959242313
 30
0.0
 11
21.60113713561218
 21
51.70540959242336
 31
0.0
  0
LINE
  8
ITEM_50
  5
49
 10
13.90113713561304
 20
52.20540959242336
 30
0.0
 11
21.10113713561241
 21
52.20540959242336
 31
0.0
  0
ARC
  8
ITEM_50
  5
4A
 10
13.90113713561304
 20
51.70540959242336
 30
0.0
 40
0.5
 50
90.0
 51
180.0
  0
ARC
  8
ITEM_50
  5
4B
 10
21.10113713561241
 20
51.70540959242336
 30
0.0
 40
0.5
 50
0.0
 51
89.99999999999927
  0
ARC
  8
ITEM_50
  5
4C
 10
21.10113713561241
 20
46.20540959242313
 30
0.0
 40
0.5
 50
269.9999999999978
 51
0.0000000000035172
  0
ARC
  8
ITEM_50
  5
4D
 10
13.90113713561282
 20
46.20540959242359
 30
0.0
 40
0.5
 50
180.0
 51
269.9999999999971
  0
LINE
  8
ITEM_50
  5
4E
 10
13.90113713561282
 20
45.70540959242359
 30
0.0
 11
14.40113713561282
 21
45.70540959242381
 31
0.0
  0
LINE
  8
ITEM_50
  5
4F
 10
20.60113713561263
 20
45.70540959242336
 30
0.0
 11
21.10113713561241
 21
45.70540959242313
 31
0.0
  0
ARC
  8
ITEM_50
  5
50
 10
21.10113713561036
 20
19.20540959242291
 30
0.0
 40
0.5
 50
359.9999999999909
 51
89.99999999999648
  0
LINE
  8
ITEM_50
  5
51
 10
20.60113713561036
 20
19.70540959242291
 30
0.0
 11
21.10113713561036
 21
19.70540959242291
 31
0.0
  0
LINE
  8
ITEM_50
  5
52
 10
13.90113713561054
 20
19.70540959242291
 30
0.0
 11
14.40113713561054
 21
19.70540959242291
 31
0.0
  0
ARC
  8
ITEM_50
  5
53
 10
13.90113713561054
 20
19.20540959242291
 30
0.0
 40
0.5
 50
89.99999999999727
 51
179.9999999999944
  0
LINE
  8
ITEM_50
  5
54
 10
20.60113713561263
 20
5.154864889224029
 30
0.0
 11
14.40113713561259
 21
5.154864889224029
 31
0.0
  0
LINE
  8
ITEM_50
  5
56
 10
4.001137135612502
 20
5.114596840533579
 30
0.0
 11
4.001137135612502
 21
2.614596840533693
 31
0.0
  0
ARC
  8
ITEM_50
  5
57
 10
6.001137135612502
 20
74.20540959242336
 30
0.0
 40
2.0
 50
90.00000000000017
 51
179.999999999999
  0
LINE
  8
ITEM_50
  5
58
 10
80.12975538522633
 20
19.20540959242336
 30
0.0
 11
77.62975538522633
 21
19.20540959242336
 31
0.0
  0
LINE
  8
ITEM_50
  5
59
 10
77.57303739169483
 20
46.20967205943199
 30
0.0
 11
77.62975538522655
 21
46.05292345589484
 31
0.0
  0
LINE
  8
ITEM_50
  5
5A
 10
77.57303739169483
 20
46.20967205943199
 30
0.0
 11
75.22220089325347
 21
45.35904419861614
 31
0.0
  0
LINE
  8
ITEM_50
  5
5B
 10
75.22220089325347
 20
45.35904419861614
 30
0.0
 11
77.62975538522633
 21
38.70540959242336
 31
0.0
  0
LINE
  8
ITEM_50
  5
5C
 10
75.22220089325347
 20
20.05177498623035
 30
0.0
 11
77.62975538522633
 21
26.70540959242291
 31
0.0
  0
LINE
  8
ITEM_50
  5
5D
 10
77.57303739169483
 20
19.20114712541428
 30
0.0
 11
75.22220089325347
 21
20.05177498623035
 31
0.0
  0
LINE
  8
ITEM_50
  5
5E
 10
77.67303739169474
 20
19.20114712541428
 30
0.0
 11
77.72975538522669
 21
19.35789572895166
 31
0.0
  0
LINE
  8
ITEM_STPG
  5
5F
 10
82.18116240553436
 20
32.70540959242336
 30
0.0
 11
73.19347805452653
 21
32.70540959242336
 31
0.0
  0
LINE
  8
ITEM_50
  5
60
 10
77.57275538522631
 20
65.8054095924235
 30
0.0
 11
77.57275538522631
 21
59.60540959242345
 31
0.0
  0
LINE
  8
ITEM_50
  5
61
 10
75.22975538522624
 20
65.80540959242304
 30
0.0
 11
75.22975538522624
 21
59.60540959242368
 31
0.0
  0
LINE
  8
ITEM_50
  5
62
 10
33.99687466860364
 20
5.171314834065185
 30
0.0
 11
34.15362327214102
 21
5.114596840533352
 31
0.0
  0
LINE
  8
ITEM_50
  5
63
 10
33.99687466860364
 20
5.171314834065185
 30
0.0
 11
34.84750252941972
 21
7.522151332506553
 31
0.0
  0
LINE
  8
ITEM_50
  5
64
 10
34.84750252941972
 20
7.522151332506553
 30
0.0
 11
41.50113713561227
 21
5.114596840533465
 31
0.0
  0
LINE
  8
ITEM_50
  5
65
 10
60.15477174180551
 20
7.522151332506553
 30
0.0
 11
53.50113713561272
 21
5.114596840533465
 31
0.0
  0
LINE
  8
ITEM_50
  5
66
 10
61.00539960262135
 20
5.171314834065185
 30
0.0
 11
60.15477174180551
 21
7.522151332506553
 31
0.0
  0
LINE
  8
ITEM_50
  5
67
 10
61.00539960262135
 20
5.171314834065185
 30
0.0
 11
60.84865099908419
 21
5.114596840533352
 31
0.0
  0
LINE
  8
ITEM_STPG
  5
68
 10
21.72070452403116
 20
32.70540959242336
 30
0.0
 11
13.0556933209416
 21
32.70540959242336
 31
0.0
  0
LINE
  8
ITEM_STPG
  5
69
 10
47.50113713561272
 20
0.2751107492229607
 30
0.0
 11
47.50113713561272
 21
9.336359075722896
 31
0.0
  0
LINE
  8
ITEM_STPG
  5
6A
 10
82.18116240553436
 20
62.70540959242336
 30
0.0
 11
73.19347805452653
 21
62.70540959242336
 31
0.0
  0
LINE
  8
ITEM_50
  5
6B
 10
77.62975538522633
 20
76.20540959242336
 30
0.0
 11
77.62975538522633
 21
19.20540959242336
 31
0.0
  0
LINE
  8
ITEM_50
  5
6C
 10
61.00113713561272
 20
5.114596840533465
 30
0.0
 11
14.40113713561259
 21
5.114596840533693
 31
0.0
  0
LINE
  8
ITEM_50
  5
6D
 10
61.00113713561272
 20
2.614596840533465
 30
0.0
 11
61.00113713561272
 21
5.114596840533465
 31
0.0
  0
LINE
  8
ITEM_50
  5
6E
 10
61.00113713561272
 20
2.614596840533465
 30
0.0
 11
17.50113713561272
 21
2.614596840533693
 31
0.0
  0
LINE
  8
ITEM_50
  5
6F
 10
20.60113713561263
 20
7.49786488922399
 30
0.0
 11
14.40113713561259
 21
7.49786488922399
 31
0.0
  0
LINE
  8
ITEM_50
  5
70
 10
20.60113713561263
 20
7.49786488922399
 30
0.0
 11
20.60113713561263
 21
5.114596840533693
 31
0.0
  0
LINE
  8
ITEM_50
  5
71
 10
14.40113713561259
 20
7.49786488922399
 30
0.0
 11
14.40113713561259
 21
5.114596840533693
 31
0.0
  0
LINE
  8
ITEM_STPG
  5
72
 10
17.50113713561272
 20
0.2751107492229607
 30
0.0
 11
17.50113713561272
 21
9.336359075722896
 31
0.0
  0
CIRCLE
  8
ITEM_50
  5
73
 10
17.50113713561272
 20
62.70540959242336
 30
0.0
 40
3.5
  0
LINE
  8
ITEM_50
  5
74
 10
4.001137135612502
 20
2.614596840533693
 30
0.0
 11
17.50113713561272
 21
2.614596840533693
 31
0.0
  0
LINE
  8
ITEM_50
  5
75
 10
4.001137135612502
 20
5.114596840533579
 30
0.0
 11
17.50113713561272
 21
5.114596840533693
 31
0.0
  0
LINE
  8
ITEM_50
  5
76
 10
80.12975538522633
 20
76.20540959242336
 30
0.0
 11
80.12975538522633
 21
19.20540959242336
 31
0.0
  0
LINE
  8
ITEM_50
  5
77
 10
77.62975538522633
 20
59.60540959242345
 30
0.0
 11
75.22975538522624
 21
59.60540959242368
 31
0.0
  0
LINE
  8
ITEM_50
  5
78
 10
77.62975538522633
 20
65.8054095924235
 30
0.0
 11
75.22975538522624
 21
65.80540959242304
 31
0.0
  0
LINE
  8
ITEM_50
  5
79
 10
80.12975538522633
 20
76.20540959242336
 30
0.0
 11
77.62975538522633
 21
76.20540959242336
 31
0.0
  0
CIRCLE
  8
ITEM_50
  5
7A
 10
17.50113713561272
 20
32.70540959242336
 30
0.0
 40
3.5
  0
ARC
  8
ITEM_50
  5
7B
 10
32.00113713561272
 20
48.20540959242336
 30
0.0
 40
1.0
 50
89.99999999999992
 51
179.9999999999989
  0
LINE
  8
ITEM_50
  5
7C
 10
31.00113713561272
 20
48.20540959242347
 30
0.0
 11
31.00113713561227
 21
21.20540959242325
 31
0.0
  0
LINE
  8
ITEM_STPG
  5
7D
 10
17.50113713561272
 20
17.680910278161
 30
0.0
 11
17.50113713561272
 21
53.58345289091786
 31
0.0
  0
ARC
  8
ITEM_50
  5
7E
 10
59.00113713561272
 20
51.20540959242336
 30
0.0
 40
2.0
 50
270.0
 51
0.0
  0
ARC
  8
ITEM_50
  5
7F
 10
59.00113713561272
 20
74.20540959242347
 30
0.0
 40
2.0
 50
359.9999999999992
 51
90.0
  0
LINE
  8
ITEM_50
  5
80
 10
17.50113713561272
 20
76.20540959242347
 30
0.0
 11
6.001137135612502
 21
76.20540959242336
 31
0.0
  0
LINE
  8
ITEM_50
  5
81
 10
4.001137135612502
 20
74.20540959242336
 30
0.0
 11
4.00113713561182
 21
21.20540959242336
 31
0.0
  0
LINE
  8
ITEM_50
  5
82
 10
32.00113713561272
 20
49.20540959242336
 30
0.0
 11
59.00113713561272
 21
49.20540959242336
 31
0.0
  0
LINE
  8
ITEM_50
  5
83
 10
59.00113713561272
 20
76.20540959242359
 30
0.0
 11
17.50113713561272
 21
76.20540959242325
 31
0.0
  0
ARC
  8
ITEM_50
  5
84
 10
29.00113713561272
 20
21.20540959242325
 30
0.0
 40
2.0
 50
269.9999999999992
 51
359.9999999999992
  0
ARC
  8
ITEM_50
  5
85
 10
6.001137135612729
 20
21.20540959242336
 30
0.0
 40
2.0
 50
179.9999999999991
 51
270.0
  0
LINE
  8
ITEM_STPG
  5
86
 10
17.50113713561272
 20
67.0782368004354
 30
0.0
 11
17.50113713561272
 21
57.9806496918789
 31
0.0
  0
POINT
  8
ITEM_HILFE
  5
87
 10
2.501137135612729
 20
77.70540959242336
 30
0.0
  0
POINT
  8
ITEM_HILFE
  5
89
 10
2.501137135612729
 20
17.70540959242336
 30
0.0
  0
POINT
  8
ITEM_HILFE
  5
8A
 10
32.50113713561272
 20
17.70540959242336
 30
0.0
  0
POINT
  8
ITEM_HILFE
  5
8B
 10
32.50113713561272
 20
77.70540959242336
 30
0.0
  0
POINT
  8
ITEM_HILFE
  5
8C
 10
62.50113713561272
 20
77.70540959242336
 30
0.0
  0
POINT
  8
ITEM_HILFE
  5
8D
 10
62.50113713561272
 20
47.70540959242336
 30
0.0
  0
POINT
  8
ITEM_HILFE
  5
8E
 10
32.50113713561283
 20
5.114596840533566
 30
0.0
  0
POINT
  8
ITEM_HILFE
  5
8F
 10
17.50113713561272
 20
5.114596840533677
 30
0.0
  0
POINT
  8
ITEM_HILFE
  5
90
 10
47.50113713561272
 20
5.114596840533423
 30
0.0
  0
POINT
  8
ITEM_HILFE
  5
91
 10
17.50113713561272
 20
2.614596840533791
 30
0.0
  0
POINT
  8
ITEM_HILFE
  5
92
 10
32.50113713561283
 20
2.61459684053368
 30
0.0
  0
POINT
  8
ITEM_HILFE
  5
93
 10
47.50113713561272
 20
2.614596840533536
 30
0.0
  0
POINT
  8
ITEM_HILFE
  5
94
 10
77.62975538522633
 20
32.70540959242337
 30
0.0
  0
POINT
  8
ITEM_HILFE
  5
95
 10
77.62975538522633
 20
62.70540959242336
 30
0.0
  0
POINT
  8
ITEM_HILFE
  5
96
 10
80.12975538522633
 20
32.70540959242336
 30
0.0
  0
POINT
  8
ITEM_HILFE
  5
97
 10
80.12975538522633
 20
62.70540959242335
 30
0.0
  0
POINT
  8
ITEM_HILFE
  5
98
 10
77.62975538522633
 20
47.70540959242336
 30
0.0
  0
POINT
  8
ITEM_HILFE
  5
99
 10
80.12975538522633
 20
47.70540959242336
 30
0.0
  0
POINT
  8
ITEM_HILFE
  5
9A
 10
32.50113713561272
 20
47.70540959242336
 30
0.0
  0
ENDSEC
  0
EOF
